Espírito Santo - Fernanda Brum - Cifra e Dedilhado

"Da mesma forma o Espírito nos ajuda em nossa fraqueza, pois não sabemos como orar, mas o próprio Espírito intercede por nós com gemidos inexprimíveis." Romanos 8:26



Dedilhado da introdução simplificado: 

                  
e|---------------0-----0- 
B|-0----0--1--3---------- 
G|-----------------0-0--- 
D|----------------------- 
A|---------------3------- 
E|-3--------------------- 

e|-2-------2-3--3-2----0
B|----0-0-----------3----
G|----------------------- 
D|----------------0------ 
A|-2-------------------0
E|-----------0----------- 

e|-12-------------------- 
B|----1--0-1-0---------0- 
G|-------------0--2--2--- 
D|----------------0------ 
A|----0------------------ 
E|-----------3-----------
              
e|-----------------------
B|-1--0-1-3-------0------ 
G|-----------0-0----2-0--
D|-----------------------
A|-0------2----3---------
E|-----------------------

e|-----3-2--0------------ 
B|---3---------3---------
G|-0--------------------- 
D|----------------------- 
A|----------------------- 
E|-3-----------3---------

Obs: Caso você esteja com dificuldades no dedilhado da introdução, você pode tocar somente uma vez a corda "D" e enquanto ela soa você começa a cantar "Espírito..." e na palavra Santo começa com o dedilhado P - IMI.

Primeira Parte:
             G5        G/B      C9     G/B
Espírito Santo, ore por mim
Am7                             D5                       G4 G5  D5
Leve pra Deus tudo aquilo que eu preciiso
             G5        G/B          C9       G/B
Espírito Santo, use as palavras
Am7                         D5                      G4 G5 Am7 G/B
Que eu necessito usar, mas não consiigo

Segunda parte: Aqui o dedilhado muda...
       C7m                          D7/C
Me ajude nas minhas fraquezas
       Bm                         E5
Não sei como devo pedir
            Am7    D9(7)                            Dm7 G5 G/B
Espírito Santo, vem interceder por mim

Terceira parte: Aqui volta o dedilhado da primeira parte...
C9                              Bm7
Todas as coisa cooperam pra o bem
    Em               D9          A
Daqueles que amam a Ti
               Am7   D5                   G5
Espírito Santo, vem orar por mim

Refrão:
              Em                        C9
Estou clamando, estou pedindo
G/B                       Am7          D5        G5
Deus sabe a dor que estou sentindo
               Em             C9
Meu coração está ferido
G/B               Am7    D5    G5
Mas o meu clamor es subindo

Repete a música a partir daqui:
...C9                             Bm7
...Todas as coisa cooperam pra o bem... + Refrão

Dedilhado Final:
       
e|----------0------------ 
B|-0-0-1-3-----3-1-----0- 
G|------------------2---- 
D|---------------0------- 
A|----------3------------ 
E|-3-------------------3-

Acordes: Reparem nos números dos dedos indicados para a formação dos acordes, algumas alterações foram feitas para facilitar a execução.




Atenção: Os acordes estão apresentados de forma diferente das “habituais”, essa variação visa uma maior simplicidade e melhor execução do dedilhado!


Ritmo: Dedilhado "P-IMI

       G5               G/B
e|----------------- 
B|----3--------3---
G|--0---0----0---0-
D|----------------- 
A|---------2------- 
E|-3--------------- 

       C9               Bm7 

e|----------------- 
B|----3--------0---
G|--0---0----2---2-
D|----------------- 
A|-3-------2------- 
E|----------------- 

       D9                  D5 

e|------------------ 
B|-----3--------1---
G|---2---2----2---2-
D|-0--------0------- 
A|------------------ 
E|------------------ 

       A                    Am7 

e|------------------ 
B|-----2--------1---
G|---2---2----0---0-
D|------------------ 
A|-0--------0------- 
E|------------------ 

       Em                

e|------------------
B|-----0------------
G|---0---0---------- 
D|------------------
A|------------------
E|-0----------------

Aqui começa uma variação do dedilhado...

      C7m               D7/C 
e|-----0--------2---
B|---0---0----3---3-
G|------------------
D|------------------
A|-3--------3-------
E|------------------ 

      Bm               E5
e|-----2-------0----
B|---3---3---0---0--
G|------------------ 
D|------------------
A|-2----------------
E|---------0--------

      Am7                D9(7)

e|-----0--------0---
B|---1---1----1---1-
G|------------------
D|----------0-------
A|-0----------------
E|------------------ 

      Dm7 
e|-----1------------
B|---1---1----------
G|------------------
D|-0----------------
A|------------------
E|------------------


P.S: Note que o acorde de "Am7" sofre uma pequena variação no dedilhado na segunda parte do louvor
Related Posts Plugin for WordPress, Blogger...

Postagens mais visitadas deste blog

Ritmos básicos para violão gospel, "Levadas"!