Chuva de poder - André e Felipe - Cifra simplificada


"Louvai-o, todos os seus anjos; louvai-o, todos os seus exércitos." Salmos 148:2






Introdução:

E|--1-1-1-1-1-1-1--3-3-3-3-3-3-3--5-5-5-5-5-5-5---6-6-6-
B|--1-1-1-1-1-1-1--1-1-1-1-1-1-1--3-3-3-3-3-3-3---6-6-6-
G|------------------------------------------------------
D|------------------------------------------------------
A|------------------------------------------------------
E|------------------------------------------------------

E|--1-1-1-1-1-1-1--3-3-3-3-3-3-3--5-3-1-1--------1------
B|--1-1-1-1-1-1-1--1-1-1-1-1-1-1--3-1-1-1--3-1-3--------
G|------------------------------------------------------
D|------------------------------------------------------
A|------------------------------------------------------
E|------------------------------------------------------


 
Em                                   C
Mais uma vez a solidão bateu à porta
                          Em
Me encontrou sem lágrimas pra derramar
                          C
O sol se pôs e a escuridão chegou agora
                          Em
Será que o meu barco vai naufragar
                          C
O desespero bate forte no meu peito
                          Em
E faz meu corpo inteiro se arrepiar
                          C
Eu tenho que tomar uma atitude agora
                          Em
Porque o tempo passa e não vai esperar

Em                           C
Vai com vento agora essa , minha frustração
                          G
Da minha vitória eu não abro mão
                          D
Com dificuldades eu cheguei aqui
                          Em
No meio do caminho , não vou desistir
                          C
E podem vir as ondas que por cima vou passar
                          G
Com Jesus no barco vou atravessar
                          D
Não estou sozinho aqui nesse deserto

Sei que a vitória ele vai mandar

Em      C  G                  D         Em C G D
  Ieie ieie chove chove chuva chuva de poder (2x)

Acordes:


Ritmo:




"E ele disse: Vem. E Pedro, descendo do barco, andou sobre as águas para ir ter com Jesus." Mateus 14:29
Related Posts Plugin for WordPress, Blogger...

Postagens mais visitadas deste blog

Ritmos básicos para violão gospel, "Levadas"!