Há um lugar - Heloísa Rosa - Cifra simplificada


"Pois Deus é o Rei de toda a terra, cantai louvores com inteligência." Salmos 47:7




Solo: Opcional

e|------------------
B|-----8---8----7---
G|-7/9---9---9-7----
D|------------------
A|------------------
E|------------------

e|------------------

B|------------------
G|-------7----------
D|-7-7h9----7/9-----
A|------------------
E|------------------

e|------------------

B|------------------
G|-------7----------
D|-7-7h9----7/9-----
A|------------------
E|------------------

e|------------------

B|-----8-8--8-8-7-7-
G|-7/9--9---9-9-7-7-
D|------------------
A|------------------
E|------------------

e|------------------

B|------------------
G|-------7h9-7h9-7--
D|-7-7h9------------
A|------------------
E|------------------

e|------------------

B|------------------
G|-9h7--------------
D|-----9------------
A|------------------
E|------------------

              C9                                    
Há um lugar de descanso em Ti
               G                                 G/B
Há um lugar de refrigério em Ti
              C9                      D           Em
Há um lugar onde a verdade reina 
             C9               G       ( C9  G ) 
Esse lugar é no Senhor
#Divisão de ritmo

              C9                                                          C9
Há um lugar onde as pessoas não me influenciam
              G
Há um lugar onde eu ouço o Teu Espírito
              C9          D                          Em       
Há um lugar de viria em meio a guerra 
             C9               G 
Esse lugar é no Senhor
#Divisão de ritmo

                                C9                                     Em  
Esse lugar é no Senhor esse lugar é no Senhor
                                C9                                     G
Esse lugar é no Senhor esse lugar é no Senhor

              C9                                           
Há um lugar onde a inconstância não me domina
              G                                            G/B
Há um lugar onde minha fé é fortalecida
              C9               D                       Em    
Há um lugar onde a paz é quem governa 
             C9               G 
Esse lugar é no Senhor
#Divisão de ritmo

               C9                                        
Há um lugar onde os sonhos não se abortam
               G
Há um lugar onde o temor não me enrijece
               C9                             D                        Em       
Há um lugar que quando se perde é que se ganha 
             C9               G         4x (C9  G)
Esse lugar é no Senhor  
#Divisão de ritmo

Jesus
          C9
Tu És tudo o que eu preciso, Jesus!
          G
Tu És tudo o que eu preciso, Jesus!
          C9
Tu És tudo o que eu preciso, Jesus!
                G
Eu Te preciso


Acordes:



Ritmo: O louvor pode ser tocado com o dedilhado P - IMI ou o "Ritmo 4". Em alguns trechos do louvor o "Ritmo 4" deverá ser dividido entre dois acordes; sendo as duas primeiras palhetadas no primeiro acorde e as cinco últimas palhetadas no segundo acorde.





Dedilhado: P - IMI 

Abaixo segue um exemplo do dedilhado P - IMI nos acordes de "G" e "G/B".

       G                 G/B
E|----------------- 
B|----3--------3---
G|--0---0----0---0-
D|----------------- 
A|---------2------- 
E|-3---------------
Related Posts Plugin for WordPress, Blogger...

Postagens mais visitadas deste blog

Ritmos básicos para violão gospel, "Levadas"!